www.rgc.ro Web analytics

Jump to content
Sign in to follow this  
Guest RGC Bot

Celelalte Cuvinte - Asa e viata mea

Recommended Posts

Guest RGC Bot

Autor: Rigoletto

 

 


Celelalte Cuvinte - Asa e viata mea
[Armaghedon]
Tab: Rigoletto

Tuning: Eb

Versuri:																										   

D#||--------------------------|-----------------------|--------------------------|-----------------------||
A#||--------------------------|-----------------------|--------------------------|-----------------------||
F#||--------------------------|-----------------------|--------------------------|----------------------*||
C#||--------------------------|-----------------------|--------------------------|----------------------*||
G#||--------------------------|--------5--4-----------|--------------------5--4--|----x--5--4------------||
D#||--2--2--2--2--2--2--2--2--|--2--2------------5----|--2--2--2--2--2--2--------|-----------------5-----||


Refren:

||---------------------------|-------------------------|--------------------------|--------------------------||
||---------------------------|-------------------------|--------------------------|--------------------------||
||*--------------------------|-------------------------|--------------------------|-------------------------*||
||*--------------------------|-------------------------|--------------------------|-------------------------*||
||-------5-----4-----2--4----|--2--2--2--2--2--2--4----|------5-----2-------------|--2--2--2--2--2--2--4-----||
||---2-2----2-----2----------|--0--0--0--0--0--0--2----|--2-2----2-----2--4--5----|--0--0--0--0--0--0--2-----||


Solo:

F# (pam pam pam si deodata..) G 
(ascultati cantecul ca sa vedeti cand se schimba in G)

Mai e o parte pe la mijloc, ceva de genul F# B A... Nu-s sigur, dar nu e foarte importanta, oricum.

Share this post


Link to post
Share on other sites
Sign in to follow this  

  • Recently Browsing   0 members

    No registered users viewing this page.

×

Important Information

"This site uses cookies. By continuing to browse the site you are agreeing to our use of cookies.