www.rgc.ro Web analytics

Jump to content
Sign in to follow this  
Guest RGC Bot

Coma - Canta-mi povestea

Recommended Posts

Guest RGC Bot

Autor: kovu_tlk

 



intro
E||---------------------------------------------------|
B||---------------------------------------------------|
G||---------------------------------------------------|
D||---------------------9--------------4--5-----5--4--|
A||--7--------7--9--10-------10--9--5--------3--------|
E||---------------------------------------------------|

strofa

E||-----------|
B||-----------|
G||--5--7--9--|
D||--5--7--9--|
A||--3--5--7--|
E||-----------|

refren

--0--0--3--3--||
--0--1--5--3--||
--0--2--5--4--||
--2--2--5--5--||
--2--0--3--5--||
--0--0--3--3--||

 

 

 

Autor: Lullaby

 



intro
E||--------------------------------------------------------|
B||--------------------------------------------------------|
G||--------------------------------------------------------|
D||----------------4---------------------4--5------5p4---|
A||----7------4h5-----5-4-----------5---------3---------|
E||-0------------------------------------------------------|

E||----------------------------------------------------|
B||----------------------------------------------------|
G||----------------------------------------------------|
D||----------------0--------------------4--5----------|
A||----7------4h5-----5-4-----------5---------3~~-|
E||-0--------------------------------------------------|

versuri: C, D, E

refren: E, A, C, G, D 

Edited by RGC Bot

Share this post


Link to post
Share on other sites
Guest alex48

si ce bataie recomanzi ? :)

Share this post


Link to post
Share on other sites
Guest dan_tyr

Va rog frumos,stie cineva care e bataia?

 

Va rog frumos,stie cineva care e bataia?

Share this post


Link to post
Share on other sites

Consider că tabul este următorul :

 

Intro :

E||---------------------------------------------------|

B||---------------------------------------------------|

G||---------------------------------------------------|

D||-----------------------9-----------------------------|

A||-----------7--9--10-------10--9-----9--10----------|

E||---------0--------------------------10--------8--------|

 

Strofa:

 

E||-----------|

B||-----------|

G||--5--7--9--|

D||--5--7--9--|

A||--3--5--7--|

E||-----------|

 

Refrenul :

 

 

E||--0--0--3--0--|

B||--0--0--3--0--|

G||--9--5--4--7--|

D||--9--5--5--7--|

A||--7--3--5--5--|

E||--0--0--3--0--|

 

Baftă :)

Edited by duoanghelos

Share this post


Link to post
Share on other sites
Sign in to follow this  

  • Recently Browsing   0 members

    No registered users viewing this page.

×

Important Information

"This site uses cookies. By continuing to browse the site you are agreeing to our use of cookies.