www.rgc.ro Web analytics

Jump to content
Sign in to follow this  
Guest RGC Bot

E.M.I.L. - Noaptea

Recommended Posts

Guest RGC Bot

Autor: Lullaby

 

 


Intro 
E||----------------------------------------------|
B||----------------------------------------------|
G||----------------------------------------------|
D||----------0h2-4---2------------0h2-4---2------|
A||--2--2-2--------0----0-2-2-2-2-------0--------|
E||----------------------------------------------|


E||--2~-0---------------------------------|
B||-------3—2h3p2--0------0—2h3p2-3-5---|
G||--------------------2\6----------------|
D||---------------------------------------|
A||---------------------------------------|
E||---------------------------------------|

E||--2~-0-----------------------2p0----0h2p0 ----0h2p0------0h2p0---|
B||-------3—2h3p2--0------0—------3---------3---------3-----------|
G||--------------------2\6------------------------------------------|
D||-----------------------------------------------------------------|
A||-----------------------------------------------------------------|
E||-----------------------------------------------------------------|

Share this post


Link to post
Share on other sites
Sign in to follow this  

  • Recently Browsing   0 members

    No registered users viewing this page.

×

Important Information

"This site uses cookies. By continuing to browse the site you are agreeing to our use of cookies.