www.rgc.ro Web analytics

Jump to content
Sign in to follow this  
Guest RGC Bot

Phoenix - Baba Novac

Recommended Posts

Guest RGC Bot

Autor: Psycho

 

 



INTRO & OUTRO

e --------------------------------------------------|----------------------------------
B --9-10-10---9-10-10----9-10-10------------|------------9--9/10--------------
G ----------------------------------------10-9-7--|--7-9-10------------10-9-7-9~-
D --------------------------------------------------|----------------------------------
A --------------------------------------------------|----------------------------------
E --------------------------------------------------|----------------------------------- X2


e -----------------------------------------------|--------------------------------------
B --10/12-10-9--------------10-9-----------|------------9--9/10----------------
G -----------------10-----10--------10-9-7--|--7-9-10-------------10-9-7-9~--
D -----------------------------------------------|-------------------------------------
A -----------------------------------------------|-------------------------------------
E -----------------------------------------------|------------------------------------- X 2

( aici lipseste o parte pe care inca nu am scos-o, dar lucrez la ea)

STROFA

D5
Armia Mariei-Sale
C5____________G5 A5
Constantinopol
D5
La furat si la monopol
C5_____________D5
Urca in zare prin hotar
D5
Mahometii vin la daruri
C5_____________G5 A5
Mare-i turbanul
D5
Le sclipesc ochii ca banul
C5_____________D5
Lacom si fara de habar.



BRIDGE X2

E ------------------------------|-------------------------------------|
B ------------------------------|-------------------------------------|
G -----7-7-7-7~--5----5----|-----7-7-7-7~--7-5---------------|
D ---------------------7----7-|------------------------8-7-5-------|
A --5--------------------------|--5----------------------------8-7--|
E ------------------------------|-------------------------------------|


E ------------------------------|------------------------------------|
B -----------------------------|------------------------------------|
G -----------------------------|------------------------------------|
D ----7-7-7-7~--5----5-----|----7-7-7-7~--7-5----------------|
A --------------------7----7---|-----------------------8-7-5-7-8--|
E --5--------------------------|--5---------------------------------|

la a doua trecere, se termina cu D5 cantat in ritmul piesei


STROFA

D5__________C5
Zboara murgii cai
C5__________D5
Sub ai mortii crai
D5__________C5
Despuind de spini
C5__________D5
Fratii lor crestini

G5_________C5
Fug turcii pierzand botforii
G5_______________C5
Moartea-i strange-n sac
G5__________C5
Sapte-s cei de fug bosforii
A5_______D5
Si Baba Novac


BRIDGE

STROFA

SOLO (cu armonia pe acordurile de la refren)

E ----------------------------------------------------|
B ----------------------------------------------------|
G -------7-7-5---7-5-------------------------------|
D --7-7----------------8-7-5---5-5-7/8\7-5-7~---|
A ----------------------------------------------------|
E ----------------------------------------------------| X 2

urmatoarele 2 parti se canta de 2 ori, in ordinea de aici
E ----------------------------------------|----------------------|
B ----------------------------------------|----------------------|
G --5---7-5------------------------------|----------------------|
D ------------8-7-5--------5------------|--5-5-7/8\7-5-7~-|
A ----------------------8------8-7-5-----|-----------------------|
E --------------------------------------8-|-----------------------|

E -----------------------------------------|------------------------|
B -----------------------------------------|------------------------|
G --5---7-5------------------------------|------------------------|
D ------------8-7-5--------5-------------|-------5----------------|
A ----------------------8------8-7-5-----|--7-8----8-7-5-7-5~-|
E --------------------------------------8--|-------------------------|

REFREN

OUTRO

NOTE
-partea a doua de la refren nu-mi suna convingator, dar asta-i cea mai buna varianta pe care am gasit-o; incercati si dati un feed-back, va rog
-solo-ul se poate canta cu o octava mai sus

Share this post


Link to post
Share on other sites
Sign in to follow this  

  • Recently Browsing   0 members

    No registered users viewing this page.

×

Important Information

"This site uses cookies. By continuing to browse the site you are agreeing to our use of cookies.