www.rgc.ro Web analytics

Jump to content
Sign in to follow this  
Guest RGC Bot

Spin - Nimeni Pe Drum

Recommended Posts

Guest RGC Bot

Autor: dalv

 

 


Tema principala:
e|-------------------------------------------------------------------------------------1---------------3-|
B|-------6-6-------6---------6----------6-6-------6---------6---------6-6-----------------------8--10--3-|
G|-----------3-2-3-5-3-----3---3------------3-2-3-5-3-----3---3-----------3-2-3-5-------3-------8--10--3-|
D|-----------------------5-------5----------------------5-------5--------------------3----5-----8--10--5-|
A|-3h5h6-6--------------5-----------5-6-6-------------5-----------5-6-6-----------1------3--5-6-6--8---5-|
E|-----------------------------------------------------------------------------------------------------3-|

Soloul acustic:
e|---------------------------------------------------------------------------\10----10-10-8--8----|
B|----8-10-11-10h11p10p8----------------------------------8-10-11-10h11p10p8-----8--11-11-10-10\8-|
G|-\7--------------------5-7-----------------2h3p2p0---\7-----------------------------------------|
D|---------------------------------------3-5------------------------------------------------------|
A|---------------------------------3-5-6----------------------------------------------------------|
E|---------------------------3-5-6----------------------------------------------------------------|

e|-10h11p10-------------------------------------------------------10h11h13\15--13h15p13--18-18-18-17-15p13h15-|
B|----------11----8-11-11\13--11-13-13b(15)rb--11h13p11--10h11h13---------------------------------------------|
D|-------------10---------------------------------------------------------------------------------------------|
G|------------------------------------------------------------------------------------------------------------|
A|------------------------------------------------------------------------------------------------------------|
E|------------------------------------------------------------------------------------------------------------|

Strofa & Refren
Eb F Gm
Eb F Gm
Eb F Gm Cm
Bb F

Share this post


Link to post
Share on other sites
Sign in to follow this  

  • Recently Browsing   0 members

    No registered users viewing this page.

×
×
  • Create New...

Important Information

"This site uses cookies. By continuing to browse the site you are agreeing to our use of cookies.