www.rgc.ro Web analytics

Jump to content
Sign in to follow this  
Guest RGC Bot

Compact - Cine Esti Tu Oare

Recommended Posts

Guest RGC Bot

Autor: Rigoletto

 

 


Intro si Refren
|--------------------------|--------------------------|
|--------------------------|--------------------------|
|--2--------2--------2-----|--2--------2--------2-----|
|--2--------2--------2-----|--3--------3--------3-----|
|-----0--0-----0--0-----0--|-----0--0-----0--0-----0--|
|--------------------------|--------------------------|


|--------------------------|----------------------|
|--------------------------|----------------------|
|--------------------------|----------------------|
|--5--------5--------5-----|--5/-7--7--7~---------|
|-----0--0-----0--0-----0--|----------------------|
|--------------------------|----------------------|


Vers

|--------------------------|--------------------------|
|--------------------------|--------------------------|
|--------------------------|--------------------------|
|--2--------2--------2-----|--2--------2--------2-----|
|--2--------2--------2-----|--3--------3--------3-----|
|-----0--0-----0--0-----0--|-----0--0-----0--0-----0--|

|--------------------------|-----------------------|
|--------------------------|-----------------------|
|--------------------------|-----------------------|
|--------------------------|-----------------------|
|--5--------5--------5-----|--5/-7--7--7~----------|
|-----0--0-----0--0-----0--|-----------------------|


A5
Cine esti oare?

C5		   D5
Cine esti tu oare?

Compact___Cine_esti_tu_oare.txt

Share this post


Link to post
Share on other sites
Sign in to follow this  

  • Recently Browsing   0 members

    No registered users viewing this page.

×

Important Information

"This site uses cookies. By continuing to browse the site you are agreeing to our use of cookies.