song=cantec

Mihail-Who you are

Recommended Posts

https://www.youtube.com/watch?v=eXBBmJTFuYs

Intro I/2 (0:06)

E|--10h12b--10--10h12b--10--10h12b--10--12--14--12--10----------------------------------------------------------------------------------------------
B|---------------------------------------------------------------------------------------10h12b--10--10h12b--10--10h12p10-----------------------------------
G|------------------------------------------------------------------------------------------------------------------------------------------------11--10--9---------------------
D|-----------------------------------------------------------------------------------------------------------------------------------------------------------------12--9--12----
A|-----------------------------------------------------------------------------------------------------------------------------------------------------------------------------------
E|-----------------------------------------------------------------------------------------------------------------------------------------------------------------------------------

Intro II/2

E|--10h12b--10--10h12b--10--10h12b--10--12--14--12--10---------------------------------------------------
B|--------------------------------------------------------------------------------------10h12b--10--10h12b--10-----12--
G|----------------------------------------------------------------------------------------------------------------------------------------
D|----------------------------------------------------------------------------------------------------------------------------------------
A|----------------------------------------------------------------------------------------------------------------------------------------
E|-----------------------------------------------------------------------------------------------------------------------------------------


Bridge Solo (1:47)

E|-----12-----12--10--12--10------|--------|--12-----12--10--12--10------|--------|-----|
B|------------------------------------10--|--12--|---------------------------------10--|--------|-----|
G|------------------------------------------|--------|---------------------------------------|--11--|-----|X2
D|------------------------------------------|--------|---------------------------------------|--------|-----|
A|------------------------------------------|--------|---------------------------------------|--------|-----|
E|------------------------------------------|--------|---------------------------------------|--------|-----|


Bass line at the end (3:03)


E|--------------------------------
B|--------------------------------
G|---------9--11--9-----------
D|--9--12------------9--12--
A|--------------------------------
E|--------------------------------


Chords : D Em Bm or you can play D5 E5 B5
                            D5
She feels in love
                                   E5     
It's something that she doesn't know what it is
B5
She's missing those days
B5                     E5
Left on a tape

And it's getting cold
She knows your arms won't hold her anymore
She's driving with fog lights on, 
Driving alone

So tell her stranger
Who you are
Why won't you tell her
Who you are
So tell her stranger
Who you are
Why won't you tell her
Who you are

Aud tacerea
Ce domneste printre noi
Si simt durerea
Ce ne bate pe amandoi

Ascult tacerea
Ce domneste langa noi
Si simt placerea
Ce ne paste pe amandoi

Hell of a road
We took the sky with a blue parachute
Was that insane? 
Would you jump again? 

Where is your mind
Won't you see she's fallen in a trap
Let's open up, please
And open up, open up

So tell her stranger
Who you are
Why won't you tell her
Who you are 
So tell her stranger
Who you are
Why won't you tell her
Who you are

So tell me why you
Treat her, treat her like a fool
Tell me why you
Treat her, treat her like a fool

She feels in love but she doesn't know
Who you are

Who you are.txt

  • Like 1

Share this post


Link to post
Share on other sites

  • Recently Browsing   0 members

    No registered users viewing this page.